ISO-10303-21;
HEADER;
FILE_DESCRIPTION (( 'STEP AP203' ),
    '1' );
FILE_NAME ('500002_c_1.STEP',
    '2023-05-11T15:13:43',
    ( '' ),
    ( '' ),
    'SwSTEP 2.0',
    'SolidWorks 2014',
    '' );
FILE_SCHEMA (( 'CONFIG_CONTROL_DESIGN' ));
ENDSEC;

DATA;
#1 = APPROVAL_PERSON_ORGANIZATION ( #51, #160, #181 ) ;
#2 = EDGE_CURVE ( 'NONE', #156, #172, #170, .T. ) ;
#3 = COORDINATED_UNIVERSAL_TIME_OFFSET ( 8, 0, .BEHIND. ) ;
#4 = VECTOR ( 'NONE', #138, 1000.000000000000000 ) ;
#5 = CC_DESIGN_PERSON_AND_ORGANIZATION_ASSIGNMENT ( #166, #55, ( #41 ) ) ;
#6 = PERSON_AND_ORGANIZATION ( #216, #220 ) ;
#7 = DIRECTION ( 'NONE',  ( 0.0000000000000000000, 1.000000000000000000, 0.0000000000000000000 ) ) ;
#8 = APPROVAL_DATE_TIME ( #234, #160 ) ;
#9 = ORIENTED_EDGE ( 'NONE', *, *, #140, .T. ) ;
#10 = EDGE_CURVE ( 'NONE', #58, #62, #131, .T. ) ;
#11 = PLANE ( 'NONE',  #95 ) ;
#12 = CARTESIAN_POINT ( 'NONE',  ( -625.0000000000001100, -1250.000000000000000, 2.000000000000000000 ) ) ;
#13 = DATE_AND_TIME ( #92, #151 ) ;
#14 = PERSON_AND_ORGANIZATION_ROLE ( 'creator' ) ;
#15 = DIRECTION ( 'NONE',  ( 1.000000000000000000, 0.0000000000000000000, 0.0000000000000000000 ) ) ;
#16 = DIRECTION ( 'NONE',  ( -1.000000000000000000, 0.0000000000000000000, -0.0000000000000000000 ) ) ;
#17 = ORIENTED_EDGE ( 'NONE', *, *, #206, .F. ) ;
#18 = PERSON_AND_ORGANIZATION_ROLE ( 'classification_officer' ) ;
#19 = ORIENTED_EDGE ( 'NONE', *, *, #73, .F. ) ;
#20 = LINE ( 'NONE', #203, #130 ) ;
#21 = ORIENTED_EDGE ( 'NONE', *, *, #59, .F. ) ;
#22 = CLOSED_SHELL ( 'NONE', ( #198, #98, #102, #209, #49, #118 ) ) ;
#23 = LOCAL_TIME ( 8, 13, 43.00000000000000000, #69 ) ;
#24 = VERTEX_POINT ( 'NONE', #227 ) ;
#25 = CARTESIAN_POINT ( 'NONE',  ( 624.9999999999998900, -1250.000000000000000, 2.000000000000000000 ) ) ;
#26 = CARTESIAN_POINT ( 'NONE',  ( -625.0000000000001100, -1250.000000000000000, 2.000000000000000000 ) ) ;
#27 = VERTEX_POINT ( 'NONE', #115 ) ;
#28 = DIRECTION ( 'NONE',  ( 0.0000000000000000000, 0.0000000000000000000, 1.000000000000000000 ) ) ;
#29 = APPROVAL_STATUS ( 'not_yet_approved' ) ;
#30 = PLANE ( 'NONE',  #232 ) ;
#31 = CARTESIAN_POINT ( 'NONE',  ( 0.0000000000000000000, 0.0000000000000000000, 0.0000000000000000000 ) ) ;
#32 = LINE ( 'NONE', #159, #171 ) ;
#33 = DIRECTION ( 'NONE',  ( 0.0000000000000000000, -0.0000000000000000000, -1.000000000000000000 ) ) ;
#34 = APPROVAL_STATUS ( 'not_yet_approved' ) ;
#35 = PERSON_AND_ORGANIZATION ( #216, #220 ) ;
#36 = LINE ( 'NONE', #43, #221 ) ;
#37 = ADVANCED_BREP_SHAPE_REPRESENTATION ( '500002_c_1', ( #94, #135 ), #225 ) ;
#38 = EDGE_LOOP ( 'NONE', ( #40, #185, #214, #223 ) ) ;
#39 = CALENDAR_DATE ( 2023, 11, 5 ) ;
#40 = ORIENTED_EDGE ( 'NONE', *, *, #213, .T. ) ;
#41 = PRODUCT_DEFINITION_FORMATION_WITH_SPECIFIED_SOURCE ( 'ANY', '', #72, .NOT_KNOWN. ) ;
#42 = PERSON_AND_ORGANIZATION ( #216, #220 ) ;
#43 = CARTESIAN_POINT ( 'NONE',  ( -625.0000000000001100, -1250.000000000000000, 0.0000000000000000000 ) ) ;
#44 = CALENDAR_DATE ( 2023, 11, 5 ) ;
#45 = ORIENTED_EDGE ( 'NONE', *, *, #147, .T. ) ;
#46 = DIRECTION ( 'NONE',  ( 0.0000000000000000000, -0.0000000000000000000, -1.000000000000000000 ) ) ;
#47 = EDGE_CURVE ( 'NONE', #24, #27, #161, .T. ) ;
#48 = MECHANICAL_CONTEXT ( 'NONE', #119, 'mechanical' ) ;
#49 = ADVANCED_FACE ( 'NONE', ( #60 ), #196, .F. ) ;
#50 =( NAMED_UNIT ( * ) SI_UNIT ( $, .STERADIAN. ) SOLID_ANGLE_UNIT ( ) );
#51 = PERSON_AND_ORGANIZATION ( #216, #220 ) ;
#52 = DESIGN_CONTEXT ( 'detailed design', #122, 'design' ) ;
#53 = CARTESIAN_POINT ( 'NONE',  ( 624.9999999999998900, -1250.000000000000000, 0.0000000000000000000 ) ) ;
#54 = DIRECTION ( 'NONE',  ( 0.0000000000000000000, 0.0000000000000000000, -1.000000000000000000 ) ) ;
#55 = PERSON_AND_ORGANIZATION_ROLE ( 'design_supplier' ) ;
#56 = UNCERTAINTY_MEASURE_WITH_UNIT (LENGTH_MEASURE( 1.000000000000000100E-005 ), #71, 'distance_accuracy_value', 'NONE');
#57 = CALENDAR_DATE ( 2023, 11, 5 ) ;
#58 = VERTEX_POINT ( 'NONE', #142 ) ;
#59 = EDGE_CURVE ( 'NONE', #65, #156, #32, .T. ) ;
#60 = FACE_OUTER_BOUND ( 'NONE', #38, .T. ) ;
#61 = LINE ( 'NONE', #126, #88 ) ;
#62 = VERTEX_POINT ( 'NONE', #195 ) ;
#63 = CARTESIAN_POINT ( 'NONE',  ( -625.0000000000001100, 1250.000000000000000, 0.0000000000000000000 ) ) ;
#64 = PLANE ( 'NONE',  #110 ) ;
#65 = VERTEX_POINT ( 'NONE', #79 ) ;
#66 = PERSON_AND_ORGANIZATION_ROLE ( 'creator' ) ;
#67 = SECURITY_CLASSIFICATION ( '', '', #107 ) ;
#68 = DIRECTION ( 'NONE',  ( 0.0000000000000000000, 0.0000000000000000000, -1.000000000000000000 ) ) ;
#69 = COORDINATED_UNIVERSAL_TIME_OFFSET ( 8, 0, .BEHIND. ) ;
#70 = ORIENTED_EDGE ( 'NONE', *, *, #47, .T. ) ;
#71 =( LENGTH_UNIT ( ) NAMED_UNIT ( * ) SI_UNIT ( .MILLI., .METRE. ) );
#72 = PRODUCT ( '500002_c_1', '500002_c_1', '', ( #48 ) ) ;
#73 = EDGE_CURVE ( 'NONE', #27, #156, #36, .T. ) ;
#74 = VECTOR ( 'NONE', #194, 1000.000000000000000 ) ;
#75 = PRODUCT_DEFINITION ( 'UNKNOWN', '', #41, #52 ) ;
#76 = EDGE_CURVE ( 'NONE', #58, #172, #175, .T. ) ;
#77 = VECTOR ( 'NONE', #180, 1000.000000000000000 ) ;
#78 = PRODUCT_DEFINITION_SHAPE ( 'NONE', 'NONE',  #75 ) ;
#79 = CARTESIAN_POINT ( 'NONE',  ( -625.0000000000001100, 1250.000000000000000, 2.000000000000000000 ) ) ;
#80 = PERSON_AND_ORGANIZATION ( #216, #220 ) ;
#81 = ORIENTED_EDGE ( 'NONE', *, *, #114, .T. ) ;
#82 = DIRECTION ( 'NONE',  ( 0.0000000000000000000, -1.000000000000000000, 0.0000000000000000000 ) ) ;
#83 = DIRECTION ( 'NONE',  ( 1.000000000000000000, -0.0000000000000000000, 0.0000000000000000000 ) ) ;
#84 = EDGE_CURVE ( 'NONE', #192, #27, #190, .T. ) ;
#85 = SHAPE_DEFINITION_REPRESENTATION ( #78, #37 ) ;
#86 = DIRECTION ( 'NONE',  ( 0.0000000000000000000, 1.000000000000000000, 0.0000000000000000000 ) ) ;
#87 = CC_DESIGN_APPROVAL ( #183, ( #41 ) ) ;
#88 = VECTOR ( 'NONE', #16, 1000.000000000000000 ) ;
#89 = ORIENTED_EDGE ( 'NONE', *, *, #2, .F. ) ;
#90 = CC_DESIGN_PERSON_AND_ORGANIZATION_ASSIGNMENT ( #42, #18, ( #67 ) ) ;
#91 = PERSON_AND_ORGANIZATION ( #216, #220 ) ;
#92 = CALENDAR_DATE ( 2023, 11, 5 ) ;
#93 = ORIENTED_EDGE ( 'NONE', *, *, #114, .F. ) ;
#94 = MANIFOLD_SOLID_BREP ( 'NONE', #22 ) ;
#95 = AXIS2_PLACEMENT_3D ( 'NONE', #148, #82, #33 ) ;
#96 = LOCAL_TIME ( 8, 13, 43.00000000000000000, #191 ) ;
#97 = DIRECTION ( 'NONE',  ( 0.0000000000000000000, 0.0000000000000000000, -1.000000000000000000 ) ) ;
#98 = ADVANCED_FACE ( 'NONE', ( #204 ), #137, .F. ) ;
#99 = CC_DESIGN_APPROVAL ( #160, ( #75 ) ) ;
#100 = APPROVAL_PERSON_ORGANIZATION ( #80, #129, #168 ) ;
#101 = ORIENTED_EDGE ( 'NONE', *, *, #213, .F. ) ;
#102 = ADVANCED_FACE ( 'NONE', ( #124 ), #11, .F. ) ;
#103 = DIRECTION ( 'NONE',  ( 0.0000000000000000000, -0.0000000000000000000, 1.000000000000000000 ) ) ;
#104 = CARTESIAN_POINT ( 'NONE',  ( 624.9999999999998900, -1250.000000000000000, 2.000000000000000000 ) ) ;
#105 = CC_DESIGN_DATE_AND_TIME_ASSIGNMENT ( #133, #150, ( #67 ) ) ;
#106 = DIRECTION ( 'NONE',  ( 1.000000000000000000, -0.0000000000000000000, 0.0000000000000000000 ) ) ;
#107 = SECURITY_CLASSIFICATION_LEVEL ( 'unclassified' ) ;
#108 = LOCAL_TIME ( 8, 13, 43.00000000000000000, #3 ) ;
#109 = ORIENTED_EDGE ( 'NONE', *, *, #10, .F. ) ;
#110 = AXIS2_PLACEMENT_3D ( 'NONE', #12, #83, #54 ) ;
#111 = CC_DESIGN_PERSON_AND_ORGANIZATION_ASSIGNMENT ( #35, #14, ( #41 ) ) ;
#112 = COORDINATED_UNIVERSAL_TIME_OFFSET ( 8, 0, .BEHIND. ) ;
#113 = EDGE_LOOP ( 'NONE', ( #21, #81, #199, #89 ) ) ;
#114 = EDGE_CURVE ( 'NONE', #65, #58, #207, .T. ) ;
#115 = CARTESIAN_POINT ( 'NONE',  ( -625.0000000000001100, -1250.000000000000000, 0.0000000000000000000 ) ) ;
#116 = PERSON_AND_ORGANIZATION ( #216, #220 ) ;
#117 = ORIENTED_EDGE ( 'NONE', *, *, #84, .F. ) ;
#118 = ADVANCED_FACE ( 'NONE', ( #208 ), #30, .T. ) ;
#119 = APPLICATION_CONTEXT ( 'configuration controlled 3d designs of mechanical parts and assemblies' ) ;
#120 = ORIENTED_EDGE ( 'NONE', *, *, #76, .F. ) ;
#121 = AXIS2_PLACEMENT_3D ( 'NONE', #163, #68, #149 ) ;
#122 = APPLICATION_CONTEXT ( 'configuration controlled 3d designs of mechanical parts and assemblies' ) ;
#123 = APPROVAL_ROLE ( '' ) ;
#124 = FACE_OUTER_BOUND ( 'NONE', #113, .T. ) ;
#125 = VECTOR ( 'NONE', #200, 1000.000000000000000 ) ;
#126 = CARTESIAN_POINT ( 'NONE',  ( 0.0000000000000000000, -1250.000000000000000, 2.000000000000000000 ) ) ;
#127 = CC_DESIGN_PERSON_AND_ORGANIZATION_ASSIGNMENT ( #91, #231, ( #72 ) ) ;
#128 = EDGE_LOOP ( 'NONE', ( #167, #230, #45, #70 ) ) ;
#129 = APPROVAL ( #34, 'UNSPECIFIED' ) ;
#130 = VECTOR ( 'NONE', #86, 1000.000000000000000 ) ;
#131 = LINE ( 'NONE', #176, #74 ) ;
#132 = CC_DESIGN_SECURITY_CLASSIFICATION ( #67, ( #41 ) ) ;
#133 = DATE_AND_TIME ( #57, #174 ) ;
#134 = ORIENTED_EDGE ( 'NONE', *, *, #140, .F. ) ;
#135 = AXIS2_PLACEMENT_3D ( 'NONE', #187, #28, #15 ) ;
#136 = LINE ( 'NONE', #53, #77 ) ;
#137 = PLANE ( 'NONE',  #222 ) ;
#138 = DIRECTION ( 'NONE',  ( -1.000000000000000000, -0.0000000000000000000, 0.0000000000000000000 ) ) ;
#139 = DIRECTION ( 'NONE',  ( 1.000000000000000000, 0.0000000000000000000, 0.0000000000000000000 ) ) ;
#140 = EDGE_CURVE ( 'NONE', #192, #65, #20, .T. ) ;
#141 = VECTOR ( 'NONE', #235, 1000.000000000000000 ) ;
#142 = CARTESIAN_POINT ( 'NONE',  ( 624.9999999999998900, 1250.000000000000000, 2.000000000000000000 ) ) ;
#143 = CARTESIAN_POINT ( 'NONE',  ( -625.0000000000001100, 1250.000000000000000, 0.0000000000000000000 ) ) ;
#144 = APPLICATION_PROTOCOL_DEFINITION ( 'international standard', 'config_control_design', 1994, #122 ) ;
#145 = DIRECTION ( 'NONE',  ( -1.000000000000000000, 0.0000000000000000000, 0.0000000000000000000 ) ) ;
#146 = VECTOR ( 'NONE', #106, 1000.000000000000000 ) ;
#147 = EDGE_CURVE ( 'NONE', #172, #24, #136, .T. ) ;
#148 = CARTESIAN_POINT ( 'NONE',  ( -625.0000000000001100, 1250.000000000000000, 2.000000000000000000 ) ) ;
#149 = DIRECTION ( 'NONE',  ( -1.000000000000000000, 0.0000000000000000000, -0.0000000000000000000 ) ) ;
#150 = DATE_TIME_ROLE ( 'classification_date' ) ;
#151 = LOCAL_TIME ( 8, 13, 43.00000000000000000, #197 ) ;
#152 = APPROVAL_DATE_TIME ( #13, #129 ) ;
#153 = DATE_AND_TIME ( #44, #23 ) ;
#154 = PRODUCT_RELATED_PRODUCT_CATEGORY ( 'detail', '', ( #72 ) ) ;
#155 = APPROVAL_DATE_TIME ( #224, #183 ) ;
#156 = VERTEX_POINT ( 'NONE', #143 ) ;
#157 = CC_DESIGN_APPROVAL ( #129, ( #67 ) ) ;
#158 = ORIENTED_EDGE ( 'NONE', *, *, #59, .T. ) ;
#159 = CARTESIAN_POINT ( 'NONE',  ( -625.0000000000001100, 1250.000000000000000, 2.000000000000000000 ) ) ;
#160 = APPROVAL ( #29, 'UNSPECIFIED' ) ;
#161 = LINE ( 'NONE', #228, #4 ) ;
#162 = DIRECTION ( 'NONE',  ( 0.0000000000000000000, 0.0000000000000000000, -1.000000000000000000 ) ) ;
#163 = CARTESIAN_POINT ( 'NONE',  ( 0.0000000000000000000, 0.0000000000000000000, 2.000000000000000000 ) ) ;
#164 = DIRECTION ( 'NONE',  ( -1.000000000000000000, 0.0000000000000000000, -0.0000000000000000000 ) ) ;
#165 = PLANE ( 'NONE',  #121 ) ;
#166 = PERSON_AND_ORGANIZATION ( #216, #220 ) ;
#167 = ORIENTED_EDGE ( 'NONE', *, *, #73, .T. ) ;
#168 = APPROVAL_ROLE ( '' ) ;
#169 = AXIS2_PLACEMENT_3D ( 'NONE', #26, #177, #103 ) ;
#170 = LINE ( 'NONE', #63, #179 ) ;
#171 = VECTOR ( 'NONE', #46, 1000.000000000000000 ) ;
#172 = VERTEX_POINT ( 'NONE', #218 ) ;
#173 = CC_DESIGN_PERSON_AND_ORGANIZATION_ASSIGNMENT ( #6, #66, ( #75 ) ) ;
#174 = LOCAL_TIME ( 8, 13, 43.00000000000000000, #112 ) ;
#175 = LINE ( 'NONE', #178, #125 ) ;
#176 = CARTESIAN_POINT ( 'NONE',  ( 624.9999999999998900, 0.0000000000000000000, 2.000000000000000000 ) ) ;
#177 = DIRECTION ( 'NONE',  ( 0.0000000000000000000, 1.000000000000000000, 0.0000000000000000000 ) ) ;
#178 = CARTESIAN_POINT ( 'NONE',  ( 624.9999999999998900, 1250.000000000000000, 2.000000000000000000 ) ) ;
#179 = VECTOR ( 'NONE', #139, 1000.000000000000000 ) ;
#180 = DIRECTION ( 'NONE',  ( -0.0000000000000000000, -1.000000000000000000, 0.0000000000000000000 ) ) ;
#181 = APPROVAL_ROLE ( '' ) ;
#182 = CARTESIAN_POINT ( 'NONE',  ( 0.0000000000000000000, 1250.000000000000000, 2.000000000000000000 ) ) ;
#183 = APPROVAL ( #233, 'UNSPECIFIED' ) ;
#184 = VECTOR ( 'NONE', #97, 1000.000000000000000 ) ;
#185 = ORIENTED_EDGE ( 'NONE', *, *, #206, .T. ) ;
#186 = DIRECTION ( 'NONE',  ( 0.0000000000000000000, 0.0000000000000000000, 1.000000000000000000 ) ) ;
#187 = CARTESIAN_POINT ( 'NONE',  ( 0.0000000000000000000, 0.0000000000000000000, 0.0000000000000000000 ) ) ;
#188 = APPROVAL_PERSON_ORGANIZATION ( #116, #183, #123 ) ;
#189 = CC_DESIGN_DATE_AND_TIME_ASSIGNMENT ( #153, #201, ( #75 ) ) ;
#190 = LINE ( 'NONE', #210, #184 ) ;
#191 = COORDINATED_UNIVERSAL_TIME_OFFSET ( 8, 0, .BEHIND. ) ;
#192 = VERTEX_POINT ( 'NONE', #236 ) ;
#193 = CALENDAR_DATE ( 2023, 11, 5 ) ;
#194 = DIRECTION ( 'NONE',  ( -0.0000000000000000000, -1.000000000000000000, -0.0000000000000000000 ) ) ;
#195 = CARTESIAN_POINT ( 'NONE',  ( 624.9999999999998900, -1250.000000000000000, 2.000000000000000000 ) ) ;
#196 = PLANE ( 'NONE',  #169 ) ;
#197 = COORDINATED_UNIVERSAL_TIME_OFFSET ( 8, 0, .BEHIND. ) ;
#198 = ADVANCED_FACE ( 'NONE', ( #202 ), #165, .F. ) ;
#199 = ORIENTED_EDGE ( 'NONE', *, *, #76, .T. ) ;
#200 = DIRECTION ( 'NONE',  ( -0.0000000000000000000, -0.0000000000000000000, -1.000000000000000000 ) ) ;
#201 = DATE_TIME_ROLE ( 'creation_date' ) ;
#202 = FACE_OUTER_BOUND ( 'NONE', #219, .T. ) ;
#203 = CARTESIAN_POINT ( 'NONE',  ( -625.0000000000001100, 0.0000000000000000000, 2.000000000000000000 ) ) ;
#204 = FACE_OUTER_BOUND ( 'NONE', #212, .T. ) ;
#205 = ORIENTED_EDGE ( 'NONE', *, *, #10, .T. ) ;
#206 = EDGE_CURVE ( 'NONE', #62, #192, #61, .T. ) ;
#207 = LINE ( 'NONE', #182, #146 ) ;
#208 = FACE_OUTER_BOUND ( 'NONE', #128, .T. ) ;
#209 = ADVANCED_FACE ( 'NONE', ( #229 ), #64, .F. ) ;
#210 = CARTESIAN_POINT ( 'NONE',  ( -625.0000000000001100, -1250.000000000000000, 2.000000000000000000 ) ) ;
#211 = LINE ( 'NONE', #104, #141 ) ;
#212 = EDGE_LOOP ( 'NONE', ( #120, #205, #101, #226 ) ) ;
#213 = EDGE_CURVE ( 'NONE', #24, #62, #211, .T. ) ;
#214 = ORIENTED_EDGE ( 'NONE', *, *, #84, .T. ) ;
#215 = APPLICATION_PROTOCOL_DEFINITION ( 'international standard', 'config_control_design', 1994, #119 ) ;
#216 = PERSON ( 'UNSPECIFIED', 'UNSPECIFIED', 'UNSPECIFIED', ('UNSPECIFIED'), ('UNSPECIFIED'), ('UNSPECIFIED') ) ;
#217 =( NAMED_UNIT ( * ) PLANE_ANGLE_UNIT ( ) SI_UNIT ( $, .RADIAN. ) );
#218 = CARTESIAN_POINT ( 'NONE',  ( 624.9999999999998900, 1250.000000000000000, 0.0000000000000000000 ) ) ;
#219 = EDGE_LOOP ( 'NONE', ( #93, #134, #17, #109 ) ) ;
#220 = ORGANIZATION ( 'UNSPECIFIED', 'UNSPECIFIED', '' ) ;
#221 = VECTOR ( 'NONE', #7, 1000.000000000000000 ) ;
#222 = AXIS2_PLACEMENT_3D ( 'NONE', #25, #145, #186 ) ;
#223 = ORIENTED_EDGE ( 'NONE', *, *, #47, .F. ) ;
#224 = DATE_AND_TIME ( #193, #96 ) ;
#225 =( GEOMETRIC_REPRESENTATION_CONTEXT ( 3 ) GLOBAL_UNCERTAINTY_ASSIGNED_CONTEXT ( ( #56 ) ) GLOBAL_UNIT_ASSIGNED_CONTEXT ( ( #71, #217, #50 ) ) REPRESENTATION_CONTEXT ( 'NONE', 'WORKASPACE' ) );
#226 = ORIENTED_EDGE ( 'NONE', *, *, #147, .F. ) ;
#227 = CARTESIAN_POINT ( 'NONE',  ( 624.9999999999998900, -1250.000000000000000, 0.0000000000000000000 ) ) ;
#228 = CARTESIAN_POINT ( 'NONE',  ( -625.0000000000001100, -1250.000000000000000, 0.0000000000000000000 ) ) ;
#229 = FACE_OUTER_BOUND ( 'NONE', #237, .T. ) ;
#230 = ORIENTED_EDGE ( 'NONE', *, *, #2, .T. ) ;
#231 = PERSON_AND_ORGANIZATION_ROLE ( 'design_owner' ) ;
#232 = AXIS2_PLACEMENT_3D ( 'NONE', #31, #162, #164 ) ;
#233 = APPROVAL_STATUS ( 'not_yet_approved' ) ;
#234 = DATE_AND_TIME ( #39, #108 ) ;
#235 = DIRECTION ( 'NONE',  ( 0.0000000000000000000, 0.0000000000000000000, 1.000000000000000000 ) ) ;
#236 = CARTESIAN_POINT ( 'NONE',  ( -625.0000000000001100, -1250.000000000000000, 2.000000000000000000 ) ) ;
#237 = EDGE_LOOP ( 'NONE', ( #117, #9, #158, #19 ) ) ;
ENDSEC;
END-ISO-10303-21;
